A maior coleção de cifras e letras na internet

Hoje Livre Sou

de Ministério Adoração e Vida

  • Imprimir
  • Veja no YouTube
Está correta?
18
Intro: F Gm F/A Bb Dm C Bb9

e|------------------------------------------------------------------13-:
B|-----6-8-10---11-8/10-8\6-8----6h8/13--11--10h11p10\6----------------:
G|---5--------------------------------------------------------10--9----:
D|------------------------------------------------------10-12----------:
A|---------------------------------------------------------------------:
E|---------------------------------------------------------------------:

F      C/E      Dm     F/C  Bb9    F     C   Csus4 C
Presença forte em mim, eu posso dizer: habitas aqui
F       C/E      Dm             Bb       F              C
Porque escravo eu fui e hoje eu sou mais livre aos teus pés

Am         Bb         C/E      F	:
Sentido na vida a minhalma encontrou	:
    Am       Bb         C          F	: Verso 1
Tua mão poderosa veio e me levantou	:
Am       Bb    Am   Bb			:
Agora eu posso declarar		:
     Dm  C   F				:
Hoje livre sou				:

                  Dm9        Bb9    F			:
Tenho sede da tua graça, cada dia  mais		:
                          Dm            Bb     C 	:
Sou mais forte e vou mais longe quando aqui estás	:Verso 2
       Dm        Gm     Am        Bb			:
Com palavras de amor te adoro, Senhor			:
     Dm  C   F                     			:
Hoje livre sou						:

                     Dm9           Bb9   F	:
Meu tesouro, minha herança, meu Supremo Bem	:
                     Dm            Bb  C	:
Nem tribulações nem dor podem nos separar	:Verso 3
   Dm           Gm           Am      Bb	:
E jamais irão romper o que o amor selou	:
     Dm  C    F					:
Hoje livre sou					:

Solo: F Dm Bb F Dm Bb C Gm/Bb

e|-----------------------------10/13-13-13/17-17--:
B|--8/10--10h11-10-8-6-6/13-13--------------------:
G|------------------------------------------------:
D|------------------------------------------------:
A|------------------------------------------------:
E|------------------------------------------------:

e|-18-17-15-13-13/20-20------------15-17-18-17-15-17-----:
B|------------------------15-17-18-------------------17--:
G|-------------------------------------------------------:
D|-------------------------------------------------------:
A|-------------------------------------------------------:
E|-------------------------------------------------------:

Verso 1
Verso 2 – termina no G para mudança de tom

G                     Em9           C9   D	
Meu tesouro, minha herança, meu Supremo Bem
                     Em            C   D	
Nem tribulações nem dor podem nos separar	
 
   Em           Am           G/B      C	
E jamais irão romper o que o amor selou	
     Em  D    G					
Hoje livre sou	

                  Em9        C9     D			
Tenho sede da tua graça, cada dia  mais		
                          Em            C      D 	
Sou mais forte e vou mais longe quando aqui estás	
       Em        Am     G/B         C
Com palavras de amor te adoro, Senhor
     Em  D   G                     			
Hoje livre sou	

G                     Em9           C9   D	
Meu tesouro, minha herança, meu Supremo Bem
                     Em            C   D	
Nem tribulações nem dor podem nos separar	
   Em           Am           G/B      C	
E jamais irão romper o que o amor selou	
     Em  D    G					
Hoje livre sou