A maior coleção de cifras e letras na internet

Estás Entre Nós

de Padre Jonas

  • Imprimir
  • Veja no YouTube
Está correta?
0
INTRO: (2x) 
   F#m          E/F#        E           F#m 
E|--2--4--5---2--4---4------4--5--4---0--2-------- 
B|------------------------------------------------ 
G|------------------------------------------------ 
D|------------------------------------------------ 
A|------------------------------------------------ 
E|------------------------------------------------ 
 
F#m          D    E               A  C#7 
Tu és minha vida, outro Deus não há! 
F#m             D    E     D    C#m  F#7 
Tu és minha estrada, a minha verda...de 
Bm       D/E   A         F#m 
Em tua palavra eu caminharei  
D              E    E/G#  A    Bm    C#m  F#7  
Enquanto eu viver e até quando tu quise...res 
Bm          D/E         A      C#7  F#m 
Já não sentirei temor, pois, estás aqui: 
 D           E   C#7 F#m 
Tu estás no meio de  nós 
 
   F#m             E               D            F#m 
E|--9--7--9--------7------7-------------------------- 
B|-----------7--------10-----------10--9--10-----7--- 
G|---------------------------9----------------9------ 
D|--------------------------------------------------- 
A|--------------------------------------------------- 
E|--------------------------------------------------- 
 
F#m              D    E          A  C#7 
Creio em Ti, Senhor, vindo de Maria 
F#m             D      E     D   C#m  F#7 
Filho eterno e Santo, homem como nós 
Bm          D/E        A            F#m 
Tu morreste por amor; vivo estás em nós 
D         E   E/G#     A  Bm     C#m F#7 
Unidade trina com o Espírito e o Pai 
Bm       D/E          A   C#7  F#m 
E um dia eu bem sei: tu retornarás 
D            E    C#7 F#m 
E abrirás o Reino dos Céus 
 
   Bm       D/E       A  C#7  F#m   D        E   C#7  F#m  Bm F#m 
E|-10-9-10------------9-7-9---------------------------------7----- 
B|---------7-7--9-9------------7----7-9-10-7-9-10-9----7-------7-- 
G|---------------------------9-----------------------9------------ 
D|---------------------------------------------------------------- 
A|---------------------------------------------------------------- 
E|---------------------------------------------------------------- 
 
F#m          D     E               A C#7 
Tu és minha força, outro Deus não há! 
F#m          D    E     D   C#m  F#7 
Tu és minha paz, minha liberdade... 
Bm         D/E   A        F#m 
Nada nesta vida nos separará 
D               E    E/G#   A     Bm  C#m F#7  
Em tuas mãos seguras minha vida guardarás 
Bm         D/E         A    C#7  F#m 
Eu não temerei o mal, tu me livrarás. 
D            E  C#7 F#m D7 
E no teu perdão viverei!  
 
Gm           Eb      F             Bb  D7 
Ó, Senhor da vida, creio sempre em ti! 
Gm         Eb   F    Eb      Dm  G7 
Filho Salvador, eu espero em ti! 
 Cm        Eb/F          Bb          Gm 
Santo Espírito de amor: desce sobre nós 
Eb            F      F/A    Bb    Cm    Dm  G7 
Tu, de mil caminhos, nos conduzes a uma fé... 
Cm          Eb/F   Bb      D7     Gm 
E por mil estradas onde andarmos nós 
  Eb          F  D7   Gm 
Qual semente nos levarás!