A maior coleção de cifras e letras na internet

Asa Branca

de Luíz Gonzaga

  • Imprimir
  • Veja no YouTube
Está correta?
-20
(Riff 1)

e|0-12-0-10-0-9-0-7-0-5-0-4---0-0--------------|
B|-------------------------0-2-----------------| 
G|--- -----------------------------------------|
D|---------------------------------------------|                                        
A|---------------------------------------------|                                          
E|-------------------------------------------- |

(Riff 2)

e|---4-7-7-4-5-5-------------------------------|
B|5-7------------------------------------------|                          
G|--- -----------------------------------------|
D|---------------------------------------------|                                        
A|---------------------------------------------|                                          
E|---------------------------------------------| 

(Riff 3)

e|---4-7-7-5-4---------------------------------|
B|5-7------------------------------------------|                          
G|--- -----------------------------------------|
D|---------------------------------------------|                                        
A|---------------------------------------------|                                          
E|---------------------------------------------|

(Riff 4)

e|-----4-7--7-5-4-5--4-4----4------------------|
B|5-5-7----------5-------7-7—-7-7-5-5----------|                          
G|--- -----------------------------------------|
D|---------------------------------------------|                                        
A|---------------------------------------------|                                          
E|---------------------------------------------|

                  (Riff 1)