A maior coleção de cifras e letras na internet

Entre a Serpente e a Estrela

de Zé Ramalho

  • Imprimir
  • Veja no YouTube
Está correta?
17
Essa é a versão do DVD e foi tirada da visão do violão do Zé, ou seja, é a original.

Introdução:  C  Em  F  G  (2x)

E|-----------5-----------------------------------------------|
B|--8------------8---5---------------------------------------|
G|-----------------------------7---5------5------------------|
D|------------------------------------7-------------7---5-5--|
A|-----------------------------------------------------------|
E|-----------------------------------------------------------|

E|-----------5-----------------------------------------------|
B|--8------------8---5---------------------------------------|
G|----------------------------7----5------5------------------|
D|------------------------------------7-------------7---5-5--|
A|-----------------------------------------------------------|
E|-----------------------------------------------------------|

C                  Em   F               C
   Há um brilho de faca   onde o amor vier
C                  Em      F           G
   E ninguém tem o mapa da alma da mulher
           F              G                     C  Em    F
   Ninguém sai com o coração sem sangrar ao tentar revê-la
C                     G             F    G
   Um ser maravilhoso,  entre a serpente   e a estrela

C Em F G

C                       Em          F              C
   Um grande amor no passado se transforma em aversão
C                   Em       F          G
   E os dois lado à lado corroem o coração
         F             G                          C     Em     F
   Não existe saudade mais cortante que a de um grande amor ausente
 C                G          F       G            
   Dura feito diamante corta   a ilusão   da gente

C   Em   F   Em A

D                   F#m     G              D
   Toco a vida pra frente fingindo não sofrer
D                 F#m      G              A
   Mas o peito dormente espera um bem querer
      G             A                 D    F#m      G
   E sei que não será surpresa se o futuro me trouxer
D                A             G    A        D     G A
   O passado de volta num semblante   de mulher
D                A             G    A             
   O passado de volta num semblante   de mulher

(D  F#m  Em  D       D  F#m Em  G  A)

      G             A                 D    F#m      G
   E sei que não será surpresa se o futuro me trouxer
D                A             G    A        D     G A
   O passado de volta num semblante   de mulher
D                A             G     A             
   O passado de volta num semblante de mulher

D  F#m  G  A  (2x)   D   F#m
                    Ehh  Ehh