A maior coleção de cifras e letras na internet

Eu, Lázaro

de Oficina G3

  • Imprimir
  • Veja no YouTube
Está correta?
-13
afinação em: C (afinação que o Juninho Afram usa em sua guitarra J1/J2)

Eu, Lázaro

Am   F      Dm          G
Uma pedra termina a história
Cm     Bb        G#       Bb
Onde a vida sem vida se encerra
B               G#m
Tentei esperar, tentei lutar
         Ebm         B
Mas não pude vencer, uoôo
G#m           F#/Bb
Sei que virá, pra me buscar
   B                    C# > G
Os meus sonhos não vão morrer
      C9      G           Am        G/B
Vou ouvir Tua voz, Vou ouvir o meu nome
      C9      G          Am   G/B
Vou ouvir Tua voz me chamando

Am   F      Dm       G
O amor derramado em lágrimas
Cm   Bb       G#        Bb
A palavra que me traz a vida
  B        G#m             C# > Ebm    B
Ecoa o som,a Tua voz o meu nome chamou, uoôo
G#m        F#/Bb
Veio aqui, pra me buscar
    B                    C# > G
Os meus sonhos não vão morrer
     C9      G         Am       G/B
Eu ouvi Tua voz, Eu ouvi o meu nome
     C9      G         Am  G/B
Eu ouvi Tua voz me chamando

        Am            G
Vem pra mim, Vem pra fora
        Am         G
Vem pra mim, Vem agora
   F                  Dm
A pedra já não está, vem me encontrar
B                   C#
Vim te buscar, "EU" vim te buscar

    solinho 1(02:36 / 02:59)
c |-------------------------------------------------------------------------------------13-15-16-15-
G||-/9-p8-6-6----------6-8-9-8-/6-6-8-9-9-8----------------------------------------13-16------------
Eb|--------------6-7-9---------------------8---------10-12-13-12-10--------10-12-13-----------------
Bb|-----------7-9---------------------------10~-10-13--------------13-10-13-------------------------
E||-------------------------------------------------------------------------------------------------
C||-------------------------------------------------------------------------------------------------

c |-13-----------13-16-15(16)-15h16h15-13~-/16-15h16h15-13-17(18)~------------13--11--------------
G||---16-14-13-16-------------------------------------------------11(13)11(13)--13--13-11---11~---
Eb|---------------------------------------------------------------------------------------10------
Bb|-----------------------------------------------------------------------------------------------
E||-----------------------------------------------------------------------------------------------
C||-----------------------------------------------------------------------------------------------

c |16(19)(17)16~-18(20)~-|
G||----------------------|
Eb|----------------------|
Bb|----------------------|
E||----------------------|
C||----------------------|

     C9      G         Am       G/B
Eu ouvi Tua voz, Eu ouvi o meu nome
     C9      G         Am  G/B
Eu ouvi Tua voz me chamando
     C9      G         Am       G/B
Eu ouvi Tua voz, Eu ouvi o meu nome
     C9      G         Am  G/B
Eu ouvi Tua voz me chamando

   solinho 2 (03:39 / 04:58)
c |-------------------------------------------------------------------7~-/12-11-9---/15-14h15h14-12
G||-/5-4--------4-5-/4-----4-5-/7-9-10-9~-/10-9--/10-9-7-7~----6-7-9-8-----------12~---------------
Eb|------6-6-4-6-------6-6---------------------11-----------7-9------------------------------------
Bb|--------------------------------------------------------9---------------------------------------
E||------------------------------------------------------------------------------------------------
C||------------------------------------------------------------------------------------------------

c |-12~-/15-14-12-14p15-/19------------19--19-----------19--19------------19-20(21)19-17p19~----
G||------------------------20-19--19/20--20--20-19-19/20--20--20-19--19/20----------------------
Eb|-----------------------------19----------------19---------------19---------------------------
Bb|---------------------------------------------------------------------------------------------
E||---------------------------------------------------------------------------------------------
C||---------------------------------------------------------------------------------------------

c |-19h20h19-17-19p17---------------------------------14(15)-12------15------------15--17----------
G||------------------------------------------/12-15-17---------14p12~--15-12--15-17--15--17-15--15-
Eb|------------------16h17h16-14-12p14~-12-14-------------------------------12----------------16---
Bb|------------------------------------------------------------------------------------------------
E||------------------------------------------------------------------------------------------------
C||------------------------------------------------------------------------------------------------

c |---17--19----------19-22(23)-/18-17h18h17-15~-17(18)-17(18)17-15-18(20)~-17-18-20-20(22)(23)20-
G||-17--15--17-15--17-----------------------------------------------------------------------------
Eb|--------------16-------------------------------------------------------------------------------
Bb|-----------------------------------------------------------------------------------------------
E||-----------------------------------------------------------------------------------------------
C||-----------------------------------------------------------------------------------------------

c |-(18)17-/15~-------------12p13----------------------------------------------------------11-12-14
G||------------13-13-10----------13------------------------------------------------11-12-14--------
Eb|--------------------12-10-------14--9p10----------------------------------8-9-10----------------
Bb|----------------------------------15----10-10--7h9~-----------------8-9-10----------------------
E||---------------------------------------------10---10-8-10------6-7-9----------------------------
C||----------------------------------------------------------6-7-9---------------------------------

c |-20(21)20(21)~-22(23)-21-22(23)(25)-17(18)~17(18)17(18)-17(18)17(18)-17(18)17(18)-17(18)17(18)-
G||-------------------------22(23)----------------------------------------------------------------
Eb|-----------------------------------------------------------------------------------------------
Bb|-----------------------------------------------------------------------------------------------
E||-----------------------------------------------------------------------------------------------
C||-----------------------------------------------------------------------------------------------

c |-17(18)17(18)-8/20-20-16-18-20-20-18-16-18-20-20-18-16-20-16-18-20--------------18-|
G||------------------------------------------------------------------18-18-17-18h20---|
Eb|-----------------------------------------------------------------------------------|
Bb|-----------------------------------------------------------------------------------|
E||-----------------------------------------------------------------------------------|
C||-----------------------------------------------------------------------------------|

o 2ºsolinho eu acho q é isso, pq eu peguei de ouvido, mas fika igualzinho...