A maior coleção de cifras e letras na internet

Pegasus Fantasy

de Saint Seiya

  • Imprimir
  • Veja no YouTube
Está correta?
12
Intro
e|---------------------------- | ----------------------- | -------------------------- |
B|---------------------------- | ----------------------- | -------------------------- |
G|---------------------------- | ----------------------- | -------------------------- |
D|----------2--0-------------- | ----------------------- | ----------2--0------------ |
A|---0--3-----------2--------- | ---0--3--2------------- | ---0--3---------2--------- |
E|-----------------------3--1- | --------------3--0----- | --------------------3--1~~ |


        faça elevar               o cosmo em seu coração         
e|-------------------- | ----------------------------------------------- |
B|-------------------- | ----------------------------------------------- |
G|-------------------- | ----------------------------------------------- |
D|-----------------2~~ | -----2----------------------------------------- |
A|-----0--2--3--5----- | ------------5--5--3----5---3---2~~------------- |
E|-------------------- | ----------------------------------------------- |

         todo mal,      combater,           despertar        o poder !
e|----------------- | -------------- | ---------------- | -------------- |
B|----------------- | -------------- | ---------------- | -------------- |
G|----------------- | -------------- | ---------------- | -------0--1--- |
D|----------------- | -----------0-- | ---------0---2-- | --2----------- |
A|--------0--2--3~~ | ---2---3------ | ------3--------- | -------------- |
E|----------------- |--------------- | ---------------- | -------------- |

         sua constelação               sempre irá te proteger                        
e|-------------------- | ----------------------------------------------- |
B|-------------------- | ----------------------------------------------- |
G|-------------------- | ----------------------------------------------- |
D|-----------------2~~ | -----2----------------------------------------- |
A|-----0--2--3--5----- | ------------5--5--3----5---3---2~~------------- |
E|-------------------- | ----------------------------------------------- |

          supera a dor             e     dá  forças pra  lutar
e|---------------------------------- | ------------------------- |
B|---------------------------------- | ------------------------- |
G|---------------------------------- | ------------------------- |
D|-------------------------------2-- | --0---------------------- |
A|----0--2--3~~---2---0---3--------- | -------3----2--2------0-- |
E|---------------------------------- | ------------------3------ |



     Pegasus Fantasy            desejos a realizar                    pois as
e|------------------------- | --------------------------------- | ---------------- |
B|--6--5--5-----5---------- | ----------------8---6---5-------- | ---------------- |
G|-----------7-----7~~-7--- | ---------------------------7--5~~ | --------4---5--- |
D|------------------------- | ---5--5--5----------------------- | -----7---------- |
A|------------------------- | --------------------------------- | ---------------- |
E|------------------------- | --------------------------------- |----------------- | 

    asas de um coração sonhador          ninguém  irá roubar                   
e|------------------------------- | -------------- ----------------- | 
B|------------------------------- | -------------------------------- | 
G|--4-----5----4-----7----5--4--7 | ----------------------------4--- | 
D|-----7----------7-------------- | -----5--5--5----6----7---------- | 
A|------------------------------- | -------------------------------- | 
E|------------------------------- | -------------------------------- |

   saint seiya!       Guerreiro   das       estrelas                      
e|-------------- | ------------------------------------------------- |
B|---------5-—5- | -------5---------------------------5------------- |
G|--5---7------- | ---7--------7----5----4-------------------------- |
D|-------------- | --------------------------7---7------------------ |
A|-------------- | ------------------------------------------------- |
E|-------------- | ------------------------------------------------- | 

   saint seiya!         Nada  a  temer        oh yeah                
e|---------------- | ------------------ | -------------------------- | 
B|---------------- | --8---6---5----5-- | ---------5---------------- | 
G|--4---5--7--7--- | -------------7---- | ---5--7------------------- | 
D|---------------- | ------------------ | -------------------------- | 
A|---------------- | ------------------ | -------------------------- | 
E|---------------- | ------------------ | -------------------------- | 

   saint seiya!          Unidos  por   sua   força               
e|----------------- | ---------------------------------------------- | 
B|-----------5----- | ------5-------------------------5------------- | 
G|---5---7--------- | ---7------7----5----4------------------------- | 
D|----------------- | -------------------------7---7---------------- | 
A|----------------- | ---------------------------------------------- | 
E|----------------- |----------------------------------------------- | 

   saint seiya!      Pegasus             até vencer!          e e eeeeee!
e|-------------- | ---------- | ------------------------ | -------4--5--- |
B|-------------- | ---------- | ----6----5----3----5---- | ---5---4--5--- |
G|--4--5--7----- | --4--5--7- | ----5----4----2----4---- | ---4---------- |
D|-------------- | ---------- | ------------------------ | -------------- |
A|-------------- | ---------- | ------------------------ | -------------- |
E|-------------- | ---------- |------------------------- | -------------- |