A maior coleção de cifras e letras na internet

Fada

de Victor e Leo

  • Imprimir
  • Veja no YouTube
Está correta?
4
(01:33) 

E|--5--5--5--7--7---9--------| 
B|--7--7--7--9--9--10--------| 
G|---------------------------|  
D|---------------------------| 
A|---------------------------| 
E|---------------------------| 

(01:50) 

E|--------3-----5-------2-----5/9---5-|--9---9---9--12--12--12---10---9--| 
B|---3h5-----5-----3h5-----5----------|-10--10--10--10--10--10---10--10--| 
G|------------------------------------|----------------------------------|  
D|------------------------------------|----------------------------------| 
A|------------------------------------|----------------------------------| 
E|------------------------------------|----------------------------------| 

E|--17--17--17---17--16--16--16--|-------9-----7-----5---------------------------| 
B|--15--15--15---15--15--15--15--|-7h10-----9---- 7---------2--3--5~-------------| 
G|-------------------------------|-----------------------------------------------|  
D|-------------------------------|-----------------------------------------------| 
A|-------------------------------|-----------------------------------------------| 
E|-------------------------------|-----------------------------------7-10--9--7--| 

(02:22) 

E|--9---9---9--7--7--7--5--5--5-----| 
B|-10--10--10--9--9--9--7--7--7-----| 
G|----------------------------------|  
D|----------------------------------| 
A|----------------------------------| 
E|----------------------------------|