A maior coleção de cifras e letras na internet

Hino Nacional Brasileiro

de Hinos

  • Imprimir
  • Veja no YouTube
Está correta?
13
Introdução do Hino Nacional Brasileiro
(André Luís M. Mantovani)

e|--------------------5-5-5h6p5-8---------------------5-----6-5-------------|
B|---------6-6-6h8p6--------------6---------6-5--8-5----8-------7~~-8~~-----|
G|-5-5h7p5------------------------------5-5---------------------------------|
D|--------------------------------------------------------------------------|
A|--------------------------------------------------------------------------|
E|--------------------------------------------------------------------------|

e|---------------------6-6-6h8p6-10-----------------------------------------|
B|---------8-8-8h10p8---------------8~~---8--6-6---5-5----------------------|
G|-7-7h9p7----------------------------------------------7-7--5-5------------|
D|----------------------------------------------------------------8-6-5~~~~-|
A|--------------------------------------------------------------------------|
E|--------------------------------------------------------------------------|

e|-------------------5---------------------6------------------------8-------------------------------------------13--|
B|---------6-6-6h8p6---6-6h8p6-----8-8h9p8---8-8h9p8----10-10h11p10---10-10h11p10----11-11p10h11----13p12h13--------|
G|-5-5h7p5----------------------7---------------------9---------------------------10-------------12----------14-----|
D|------------------------------------------------------------------------------------------------------------------|
A|------------------------------------------------------------------------------------------------------------------|
E|------------------------------------------------------------------------------------------------------------------|

e|--12-10----12---13------|
B|--------13--------------|
G|------------------------|
D|------------------------|
A|------------------------|
E|-------------------(13)-|


Abaixo de cada parte da tablatura está a parte referente ao hino
cantado, pra que se entenda melhor o tempo, que não tem como ser 
mostrado em tablaturas.

E|-----------5---5-6-7-8-------------5---6^5-----
B|---6-5-6-8---8---------6---6-5-8-6---8-----7-8-
G|-5-----------------------5---------------------
D|-----------------------------------------------
A|-----------------------------------------------
E|-----------------------------------------------
"Ouviram do Ipiranga as margens plácidas
 De um povo heróico o brado retumbante,"

E|--------------------8-9-10--------------------8--------
B|---8-7-8-10-11-10-11-------8---8-7-10-8-11-10---11-9-10-
G|-7---------------------------7-----------------------
D|---------------------------------------------------
A|---------------------------------------------------
E|---------------------------------------------------
"E o Sol da liberdade, em raios fúlgidos, 
 Brilhou no céu da pátria nesse instante."

E|-------------------------10-8-----------------------------
B|-10-10-11-10-10-11-10-10-----11-11-10-10-8-8---------------
G|----------------------------------------------10-10-9-9-7---
D|------------------------------------------------------------
A|-------------------------------------------------------------
E|-------------------------------------------------------------
"Se o penhor dessa igualdade 
 Conseguimos conquistar com braço forte,"

E|-------------------8-7---------------------------
B|-8-8-10-8-8-10-8-8-----10-10-8-8-----------------
G|---------------------------------10-10-9-9-7-7----
D|-----------------------------------------------10- 
A|--------------------------------------------------- 
E|--------------------------------------------------- 
"Em teu seio, ó liberdade,
 Desafia o nosso peito a própria morte!"

E|-------6-------6-------6-6-
B|---5-8-----5-8-----5-8-----
G|-5-------5-------5---------
D|---------------------------
A|---------------------------
E|---------------------------
"Ó pátria amada, 
 Idolatrada,
 Salve! Salve!"


E|-----------5---5-6-7-8-------------5---6^5-----
B|---6-5-6-8---8---------6---6-5-8-6---8-----7-8-
G|-5-----------------------5---------------------
D|-----------------------------------------------
A|-----------------------------------------------
E|-----------------------------------------------
"Brasil, um sonho intenso, um raio vívido 
 De amor e de esperança à terra desce,"


E|--------------------8-9-10--------------------8--------
B|---8-7-8-10-11-10-11-------8---8-7-10-8-11-10---11-9-10-
G|-7---------------------------7-----------------------
D|---------------------------------------------------
A|---------------------------------------------------
E|---------------------------------------------------
"Se em teu formoso céu, risonho e límpido,
 A imagem do Cruzeiro resplandece."

E|---------------------6------------------------8-----------------------------10-
B|-6-8-6-5^6-5^6-8-6-6----8-10-8-7^8-7^8-10-8-8----10-11-10-9^10-9^10-11-10-10---
G|-------------------------------------------------------------------------------
D|------------------------------------------------------------------------------
A|-------------------------------------------------------------------------------
E|-------------------------------------------------------------------------------
"Gigante pela própria natureza,
 És belo, és forte, impávido colosso,
 E o teu futuro espelha essa grandeza,"

E|-8-----------------6^5---------6-------
B|---11-8-8----5-6-8-----5-6-------8-8-6-
G|----------10----------------7-7---------
D|---------------------------------------
A|---------------------------------------
E|---------------------------------------
"Terra adorada, 
 Entre outras mil,
 És tu, Brasil,
 Ó Pátria amada" 

E|-5-6-7-8-8-5-----6-5----------------
B|-------------6-------6-------5-6~~~-
G|---------------7-------7-5-7--------
D|------------------------------------
A|-------------------------------------
E|------------------------------------
"Dos filhos deste solo és mãe gentil,
 Pátria amada, 
 Brasil!"
E|-----------5---5-6-7-8-------------5---6^5-----
B|---6-5-6-8---8---------6---6-5-8-6---8-----7-8-
G|-5-----------------------5---------------------
D|-----------------------------------------------
A|-----------------------------------------------
E|-----------------------------------------------
"Deitado eternamente em berço esplendido
 Ao som do mar e à luz do céu profundo,"

E|--------------------8-9-10--------------------8--------
B|---8-7-8-10-11-10-11-------8---8-7-10-8-11-10---11-9-10-
G|-7---------------------------7-----------------------
D|---------------------------------------------------
A|---------------------------------------------------
E|---------------------------------------------------
"Fulguras ó Brasil florão da América, 
 Iluminado ao sol do novo mundo."
E|-------------------------10-8-----------------------------
B|-10-10-11-10-10-11-10-10-----11-11-10-10-8-8---------------
G|----------------------------------------------10-10-9-9-7---
D|------------------------------------------------------------
A|-------------------------------------------------------------
E|-------------------------------------------------------------
"Do que a terra, mais garrida 
 Seus risonhos limpos campos têm mais flores,"

E|-------------------8-7---------------------------
B|-8-8-10-8-8-10-8-8-----10-10-8-8-----------------
G|---------------------------------10-10-9-9-7-7----
D|-----------------------------------------------10- 
A|--------------------------------------------------- 
E|--------------------------------------------------- 
"Nossos bosques, tem mais vida,
 Nossa vida em teu seio mais amores!"

E|-------6-------6-------6-6-
B|---5-8-----5-8-----5-8-----
G|-5-------5-------5---------
D|---------------------------
A|---------------------------
E|---------------------------
"Ó pátria amada, 
 Idolatrada,
 Salve! Salve!"

E|-----------5---5-6-7-8-------------5---6^5-----
B|---6-5-6-8---8---------6---6-5-8-6---8-----7-8-
G|-5-----------------------5---------------------
D|-----------------------------------------------
A|-----------------------------------------------
E|-----------------------------------------------
"Brasil, de amor eterno, seja símbolo 
 O lábaro que ostentas estrelado,"

E|--------------------8-9-10--------------------8--------
B|---8-7-8-10-11-10-11-------8---8-7-10-8-11-10---11-9-10-
G|-7---------------------------7-----------------------
D|---------------------------------------------------
A|---------------------------------------------------
E|---------------------------------------------------

"E diga o verde louro desta flâmula,
 Paz no futuro e glória no passado."

E|---------------------6------------------------8-----------------------------10-
B|-6-8-6-5^6-5^6-8-6-6----8-10-8-7^8-7^8-10-8-8----10-11-10-9^10-9^10-11-10-10---
G|-------------------------------------------------------------------------------
D|------------------------------------------------------------------------------
A|-------------------------------------------------------------------------------
E|-------------------------------------------------------------------------------
"Mas ergues da justiça a glava forte,
 Veraz que um filho teu não foje a luta,
 Nem teme quem te adora a própria morte,"


E|-8-----------------6^5---------6-------
B|---11-8-8----5-6-8-----5-6-------8-8-6-
G|----------10----------------7-7---------
D|---------------------------------------
A|---------------------------------------
E|---------------------------------------
"Terra adorada, 
 Entre outras mil,
 És tu, Brasil,
 Ó Pátria amada" 

E|-5-6-7-8-8-5-----6-5----------------
B|-------------6-------6-------5-6~~~-
G|---------------7-------7-5-7--------
D|------------------------------------
A|-------------------------------------
E|------------------------------------
"Dos filhos deste solo és mãe gentil,
 Pátria amada, 
 Brasil!"